Agenzia Musicisti

Negrita In Ogni Atomo

FAm SOL# DO DO

Intro
------------------|---------------------------|----------------|-------|
------------------|---------------------------|----------------|-------|
-5-/-10-10---10---|-/-12-b/-13-/-10-10---10---|-/-12-b/-13-/-9-|-/-5-/-|
----------10---10-|-------------------10---10-|----------------|-------|
------------------|---------------------------|----------------|-------|
------------------|---------------------------|----------------|-------|


------------------|---------------------------|-----------------|-----|
------------------|---------------------------|-----------------|-----|
-5-/-10-10---10---|-/-12-b/-13-/-10-10---10---|-/-12-b/-13-/-17-|-17v-|
----------10---10-|-------------------10---10-|-----------------|-----|
------------------|---------------------------|-----------------|-----|
------------------|---------------------------|-----------------|-----|


FAm                SOL#
Hai le carte passi Giocati i tui assi
DO
Punta pure ciò che hai,  pensi troppo a cosa fai
FAm                        SOL#
Perchè a quelli come noi   Serve spazio ed aria sai
DO
Troppo poco quel che c'è  troppo poco anche per te

            SOL#           RE#
Sei uguale a me Altro che no
         LA#m             DO#
Sei come me In ogni atomo Ogni atomo

Fm G# C C

------------------|---------------------------|----------------|-------|
------------------|---------------------------|----------------|-------|
-5-/-10-10---10---|-/-12-b/-13-/-10-10---10---|-/-12-b/-13-/-9-|-/-5-/-|
----------10---10-|-------------------10---10-|----------------|-------|
------------------|---------------------------|----------------|-------|
------------------|---------------------------|----------------|-------|

FAm                   SOL#
Maledetti i fragili,  che si fanno scrupoli
DO
che si siupano da sè,  siamo vuoti a perdere
FAm                       SOL#
ma stavolta è colpa tua,  prendi al volo e metti via
DO
che di donne come te,   lascia stare non ce n'è

DO#           SOL#
Sei uguale a me Altro che no
RE#        LA#m
Sei come me In ogni atomo
DO#             SOL#
Sei uguale a me Altro che no
RE#         RE#
Sei come me In ogni atomo
FA#       FAm        RE#
Ogni atomo Ogni atomo
FA#       FAm        RE#
Ogni atomo Ogni atomo

FAm SOL# DO DO

solo

-------------|-------------|-------------|------------------|
-------------|-------------|-------------|------------------|
-9-/-16-/-14-|-9-/-16-/-14-|-9-/-16-/-14-|-9-/-16-/-18-/-16-|
-------------|-------------|-------------|------------------|
-------------|-------------|-------------|------------------|
-------------|-------------|-------------|------------------|


-------------|-------------|-------------|------------------|----|
-------------|-------------|-------------|------------------|----|
-9-/-16-/-14-|-9-/-16-/-14-|-9-/-16-/-14-|-9-/-16-/-18-/-16-|-14-|
-------------|-------------|-------------|------------------|----|
-------------|-------------|-------------|------------------|----|
-------------|-------------|-------------|------------------|----|

2 giri strumentali FAm SOL# DO DO

------------------|---------------------------|----------------|-------|
------------------|---------------------------|----------------|-------|
-5-/-10-10---10---|-/-12-b/-13-/-10-10---10---|-/-12-b/-13-/-9-|-/-5-/-|
----------10---10-|-------------------10---10-|----------------|-------|
------------------|---------------------------|----------------|-------|
------------------|---------------------------|----------------|-------|


------------------|---------------------------|-----------------|-----|
------------------|---------------------------|-----------------|-----|
-5-/-10-10---10---|-/-12-b/-13-/-10-10---10---|-/-12-b/-13-/-17-|-17v-|
----------10---10-|-------------------10---10-|-----------------|-----|
------------------|---------------------------|-----------------|-----|
------------------|---------------------------|-----------------|-----|


FAm                  SOL#
Hai le carte passi,  giocati i tuoi assi
DO
In due rischio minimo,  siamo in condomminio
FAm                    SOL#
Che chi mangia polvere lascia i denti mordere
DO
Perchè quelli come noi non li schiacceranno mai
FAm                  SOL#          DO
e se ti abbandonerai, io ti curerò
FAm                  SOL#
medicine come noi,  non ne inventeranno mai
DO
siamo soci.. I'll give you all my love

DO#           SOL#
Sei uguale a me Altro che no
RE#        LA#m
Sei come me In ogni atomo
DO#             SOL#
Sei uguale a me Altro che no
RE#         RE#
Sei come me In ogni atomo
FA#       FAm        RE#
Ogni atomo Ogni atomo
FA#       FAm        RE#
Ogni atomo Ogni atomo

Solo #2
Eseguito con lo slide
-------------|-------------|-------------|------------------|
-------------|-------------|-------------|------------------|
-9-/-16-/-14-|-9-/-16-/-14-|-9-/-16-/-14-|-9-/-16-/-18-/-16-|
-------------|-------------|-------------|------------------|
-------------|-------------|-------------|------------------|
-------------|-------------|-------------|------------------|


-------------|-------------|-------------|------------------|----|
-------------|-------------|-------------|------------------|----|
-9-/-16-/-14-|-9-/-16-/-14-|-9-/-16-/-14-|-9-/-16-/-18-/-16-|-14-|
-------------|-------------|-------------|------------------|----|
-------------|-------------|-------------|------------------|----|
-------------|-------------|-------------|------------------|----|

--------------------------|--------------------------|--------------------------|
--------------------------|--------------------------|--------------------------|
--15v-15v-15v-17p16p15----|--15v-15v-15v-17p16p15----|--15v-15v-15v-17p16p15----|
-----------------------17-|-----------------------17-|-----------------------17-|
--------------------------|--------------------------|--------------------------|
--------------------------|--------------------------|--------------------------|


--------------------------|--------------------------|--------------------------|
--------------------------|--------------------------|--------------------------|
--15v-15v-15v-17p16p15----|--15v-15v-15v-17p16p15----|--15v-15v-15v-17p16p15
----|
-----------------------17-|-----------------------17-|-----------------------17-|
--------------------------|--------------------------|--------------------------|
--------------------------|--------------------------|--------------------------|

slide
---------|---------|---------|---------|----|----|----|
---------|---------|---------|---------|----|----|----|
-15-/-21-|-15-/-21-|-15-/-21-|-21-/-15-|-14-|-13-|-12-|
---------|---------|---------|---------|----|----|----|
---------|---------|---------|---------|----|----|----|
---------|---------|---------|---------|----|----|----|

Negrita testi canzoni

Agenzia Musicisti

L'autore del post

Foto dell'autore
Alberto Moneti 28 anni; pianista dall'età di 8 anni, organista, percussionista, ha conseguito la licenza in teoria e solfeggio al Conservatorio Cherubini di Firenze. Webmaster, operatore di marketing online e SEO. Twitter @albertomoneti