Traspositore
0
Semplifica
Testo
Auto-scroll
Traspositore
0
Semplifica accordi
Dimensioni Testo
0
Auto-scroll
Video Stampa Segnala

Blew: Chords

100 Esercizi di Chitarra, scopri il nuovo libro Bestseller!
*Attenzione all'accordatura*
Intro:

Eb|--------------------------------|
A |--------------------------------|
F |--------------------------------|
C |-0-0-3-5-5/6-6-5--3-3-0-3h5-3h5-|
G |-0-0-3-5-5/6-6-5--3-3-0-3h5-3h5-|
C |-0-0-3-5-5/6-6-5--3-3-0-3h5-3h5-|

Strofa:

Eb|------------------------------------0-------------0--|
A |------------------------------------0-------------0--|
F |---------5-------------------------(0)-----------(0)-|
C |-0-3-5-5b-5b-5-5-3-3h5-5-3~-5\3/5-5-------5\3/5-5----|
G |-----------------------------------------------------|
C |-------------------------------------0-0-0---------0-|
 
Eb|--------------------------------------0-------------0--|
A |--------------------------------------0-------------0--|
F |---------5---------------------------(0)-----------(0)-|
C |-0-3-5-5b-5b-5-5-3-3h5-5-3----5\3/5-5-------5\3/5-5----|
G |---------------------------5~--------------------------|
C |---------------------------------------0-0-0---------0-|

If you wouldn't mind, I would like it blew
And If you wouldn't mind, I would like it loose
And If you wouldn't care, I would like to leave
And If you wouldn't mind, I would like to breathe

Is there another reason for your stain?
Could you believe who we knew was stress and strain?
Here is another word that rhymes with shame!

If you wouldn't mind, I would like it blew
And If you wouldn't mind, I would like it loose
And If you wouldn't care, I would like to leave
And If you wouldn't mind, I would like to breathe

(x2)
Is there another reason for your stain?
Could you believe who we knew was stress and strain?
Here is another word that rhymes with shame!

Eb|-------------|
A |-------------|
F |-------------|
C |-0-3-5-6-6-0-|
G |-0-3-5-6-6-0-|
C |-0-3-5-6-6-0-|

(x8)
You could do anything
100 Esercizi di Chitarra, scopri il nuovo libro Bestseller!

Credits

Autore: KURT COBAIN
Copyright: © END OF MUSIC THE, BMG SILVER SONGS US, BMG RIGHTS MANAGEMENT (ITALY) S.R.L.
 

Blew: Video

Blew è la prima canzone del primo album dei Nirvana Bleach (1989). Fu scritta dal frontman Kurt Cobain e nel 1990 dette il nome ad un EP contenente 4 canzoni, due delle quali già uscite con lo stesso Bleach ed altre due (Been A Son e Stain) che avrebbero anticipato l'uscita del successivo Incesticide.

 

Articoli correlati

 Nirvana: Vedi tutte le canzoni
Heart-Shaped Box
Canzone del 1993, primo singolo estratto dall'album In Utero, Heart-Shaped Box è stata ispirata a Kurt Cobain dallo scr...
Come As You Are
Secondo singolo dall'album Nevermind (1991), Come As You Are è una canzone, a detta dello stesso autore Kurt Cobain, su...
The Man Who Sold the World
The Man Who Sold the World è un brano celebre inciso dai Nirvana, contenuto nell'album MTV Unplugged in New York pubbli...
Lithium
Una canzone "lunatica" su di un uomo che si rifugia nella religione in seguito alla morte della propria ragazza: Lithium...
About a Girl
About a Girl è un brano inciso dai Nirvana, contenuto nell'album Bleach pubblicato nel 1989. Disco d'esordio per la ban...

L'autore del post

Foto dell'autore
Alberto Moneti
36 anni, polistrumentista: pianoforte, chitarra, batteria, clarinetto. Ha conseguito la licenza in teoria musicale e solfeggio presso il Conservatorio Cherubini di Firenze. Dal 1997 è organista presso la Basilica di Santa Maria del Sasso, a Bibbiena (AR).