Linoleum è la prima traccia dell’album di maggior successo dei NOFX: Punk In Drublic, rilasciato nel 1994 e divenuto in seguito disco d’oro senza neppure aver mai avuto ne’ passaggi in radio ne’ in tv.
E’ stato scritto dal cantante e bassista Fat Mike e puntualmente, ad ogni concerto genera un pogo infernale tra la folla in delirio.

Oltre al testo riportiamo la tablatura per chitarra suddivisa in due parti.

NOFX Linoleum Tablatura per Chitarra Guitar Tab

Intro - Guitar 1
p=palm-mute
E-----/p\---/p\-------|
B---------------------|
G---9-999-9-999-9-9---|   x8
D---9-999-9-999-9-9---|
A---7-777-7-777-7-7---|
E---------------------|

Intro - Guitar B (after Guitar 1 x4)
E---/--palm-muted-\---|
B---------------------|
G---------------------|   x4, pick-slide at the end
D---2-2-2-2-2-2-2-2---|
A---2-2-2-2-2-2-2-2---|
E---0-0-0-0-0-0-0-0---|

Riff - Guitar 1
play every note X6
E-------------------------------------------------|
B-------------------------------------------------|
G-------------------------------------------------|
D---6-----6-----6-----6----11-----9-----7-----9---|
A---7-----7-----6-----6----11-----9-----7-----9---|
E---------------4-----4-----9-----7-----5-----7---|

Riff - Guitar 2
play every note X6
E-------------------------------------------------|
B-------------------------------------------------|
G-------------------------------------------------|
D---6-----6---------------------------------------|
A---------------3-----3-----7-----7-----7-----6---|
E-------------------------------------------------|

Intro Guitar 1

Verse - Guitar 1 & 2
play every note X6
E-------------------------------------------------|
B-------------------------------------------------|
G-------------------------------------------------|   x2
D---6-----6-----6-----6----11-----9-----7-----9---|
A---7-----7-----6-----6----11-----9-----7-----9---|
E---------------4-----4-----9-----7-----5-----7---|

Verse 2 - Guitar 1 & 2
play every note X12
E-------------------------------------------------|
B-------------------------------------------------|
G-------------------------------------------------|
D---6----------------------11-----------7---------|
A---7-----------6----------11-----------7---------|
E---------------7-----------9-----------5---------|

Verse

Verse 2 (x5)

Riff

Outro - Guitar 1
p=palm-mute
E-----/p\---/p\--------/p\---/p\--------/p\---/p\---------|
B---------------------------------------------------------|
G---9-999-9-999-9-9--9-999-9-999-9-9--9-999-9-999-9-9-9\--|
D---9-999-9-999-9-9--9-999-9-999-9-9--9-999-9-999-9-9-9\--|
A---7-777-7-777-7-7--7-777-7-777-7-7--7-777-7-777-7-7-7\--|
E---------------------------------------------------------|

Outro - Guitar 2
%=pause
E---------------------------------------------------------|
B---------------------------------------------------------|
G---------------------------------------------------------|
D-------------------------------------------------2-2-2---|
A-------------------------------------------------2-2-2---|
E---%%%%%%%%%%%%%%%%%%%%%%%%%%%%%%%%%%%%%%%%%%%%%-0-0-0---|

NOFX Linoleum Testo Lyrics

Possesions never meant anything to me
I'm not crazy
Well that's not true, I've got a bed, and a guitar
And a dog named Bob who pisses on my floor
That's right, I've got a floor
So what, so what, so what?
I've got pockets full of kleenex and lint and holes
Where everything important to me
Just seems to fall right down my leg
And on to the floor
My closest friend linoleum
Linoleum
Supports my head, gives me something to believe
That's me on the beachside combing the sand
Metal meter in my hand
Sporting a pocket full of change
That's me on the street with a violin under my chin
Playing with a grin, singing gibberish
That's me on the back of the bus
That's me in the cell
That's me inside your head
That's me inside your head
That's me inside your head

Articoli correlati

  • BobBob Bob è la terza traccia di White Thrash, Two Heebs And A Bean, album del 1992 dei NOFX. Il pezzo, a metà tra il punk ed il jazz, prevede un riff di tromba suonato nella versione […]
  • Don’t Call Me WhiteDon’t Call Me White Don't Call Me White è una canzone del 1994, scritta dai NOFX e rilasciata con l'album Punk In Drublic. Il singolo è stato rilasciato in versione limitata, inciso su di un vinile […]
  • Stickin’ In My EyeStickin’ In My Eye Stickin In My Eye è il secondo brano di White Trash, Two Heebs And A Bean, cd dei californiani NOFX pubblicato dalla Epitaph nel 1992. Oltre a Bob è uno dei due singoli da esso […]
  • AliveAlive Alive è il singolo d'esordio dei Pearl Jam, pubblicato nel 1991, primo estratto dall'album Ten. La canzone era stata originariamente concepita come un pezzo strumentale dal […]
  • Every You Every MeEvery You Every Me Every You Every Me è una canzone incisa dai Placebo nel 1998 come ottava traccia del loro secondo album Without You I'm Nothing. E' da sempre uno dei loro cavalli di battaglia, […]

L'autore del post

Foto dell'autore
Alberto Moneti
31 anni; pianista dall'età di 8 anni, organista, percussionista, chitarrista, ha conseguito la licenza in teoria musicale e solfeggio al Conservatorio Cherubini di Firenze. Fondatore di Accordiespartiti.it, operatore di marketing online e SEO.
NOFX