Bevo è la seconda traccia ed il secondo singolo estratto da Tempi Bui, l’album del 2009 inciso dai Ministri come secondo lavoro studio. E’ stato promosso con la realizzazione di due differenti ispirate allo stesso videoclip girato con la regia di Collinelli e Torza.

Testo + accordi e tablatura per chitarra.

Bevo Accordi Tablatura per Chitarra Guitar Chords Tab Testo

INTRO

e|--------------------------------------------------------------------|
B|--------------------------------------------------------------------|
G|---------------7---------------7-----------7------------------------|
D|---------------7---------------7-----------7------------------------|     x3
A|-----------------------------------------------------7-7-7-7-7-7-7--|
E|-7-7-7-7-7-7-7---7-7-7-7-7-7-7-----7-7-7-7----7-7----5-5-5-5-5-5-5--| palm muting

RIFF

e|-----------------------------------------------|    |---------------------|
B|-----------------------------------------------|    |----0----------------|
G|--9-9-0-5-5-5-9-9-5-5---9-7-5-----9-7--7-5-----| x2 |----0----------------|     
D|--9-9-0-5-5-0-9-9-5-5---9-7-5-2---9-7--7-5-----|    |----0----------------|
A|--7-7-0-3-3-0-7-7-3-3---7-5-3-2---7-5--5-3-----|    |----0----------------|
E|------------------------------0----------------|    |---------------------|

(INTRO)
Bevi pure quanto vuoi basta che poi
Fai guidar qualcun altro.

(INTRO)
Lo sponsor dice bevi tutto ciò che hai e poi
Fai guidar qualcun altro.

INTRO - PARTE 2

e|------------------------------------------------------------------------|
B|---------------8----------------8----------8----------------------------|
G|---------------7----------------7----------7----------------------------|
D|---------------------------------------------------------5-5-5-5-5-5-5--|   x2
A|-7-7-7-7-7-7-7----7-7-7-7-7-7-7-----7-7-7-7----7-7-------7-7-7-7-7-7-7--|
E|------------------------------------------------------------------------|
|| Gli altri dicon bevi è la tua serata e poi fai guidar qualcun altro.
|| Lasciate guido io che quando bevo mi sento già qualcun altro

           RE
Per dimenticare
Bevo bevo bevo
            RE
Per ballare meglio
Bevo bevo bevo
                  RE
Per il prodotto interno
Bevo bevo bevo
                RE
Per scoparti in bagno
Bevo bevo bevo

   DO        SI     MIm  RE 
e|-------------------------------|
B|-------------------------------|
G|--5--------4-4/---9-9--7-------|
D|--5--------4-4/---9-9--7-------|
A|--3--------2-2/---7-7--5-------|
E|-------------------------------|
||    Perchè non ho sete
||    E per  riscaldarmi
||  Perché mi dai da bere
||  Da quando ho 15 anni (stop sul MIm)

   DO      SI   MIm             RE 
e|----------------------------------------------|
B|----------------------------------------------|
G|-5-5-----4-4------------------7-7-------------|
D|-5-5-----4-4--2-2/------------7-7-------------|
A|-3-3-----2-2--2-2/------------5-5-------------|
E|--------------0-0-----------------------------|     
||  Quando mi diverto     -Bevo bevo bevo
||  Quando non mi diverto -Bevo bevo bevo
||  Perché il mio Paese   -Beve beve beve      DO (ripetuto)
||  Perché gli conviene   -Bere bere bereeeeeeeeee

(INTRO)
Lo Stato dice bevi che una parte poi va a noi
E fai guidar qualcun altro

(INTRO)
Dimmi quanti anni hai e in ogni caso poi
Fai guidar qualcun altro

(INTRO - PARTE 2)
Sarebbe bello un giorno uscire per vederti e scoprire che
Che si può far qualcos'altro

             RE
Per conoscer gente
Bevo bevo bevo
            RE
E per rincontrarla
Bevo bevo bevo
               RE
Perché non c'è altro
Bevo bevo bevo
            RE
Per tenermi calmo
Bevo bevo bevo

    DO        SI     MIm  RE 
e|-------------------------------|
B|-------------------------------|
G|--5--------4-4/---9-9--7-------|
D|--5--------4-4/---9-9--7-------|
A|--3--------2-2/---7-7--5-------|
E|-------------------------------|
||    Perchè non ho sete
||    E per  riscaldarmi
||  Perché mi dai da bere
||  Da quando ho 15 anni (stop sul MIm)

   DO      SI   MIm             RE 
e|----------------------------------------------|
B|----------------------------------------------|
G|-5-5-----4-4------------------7-7-------------|
D|-5-5-----4-4--2-2/------------7-7-------------|
A|-3-3-----2-2--2-2/------------5-5-------------|
E|--------------0-0-----------------------------|     
||  Quando mi diverto     -Bevo bevo bevo
||  Quando non mi diverto -Bevo bevo bevo
||  Perché il mio Paese   -Beve beve beve      DO (ripetuto)
||  Perché gli conviene   -Bere bere bereeeeeeeeee

BRIDGE 

e|-----------------------------------------------------------------|
B|-----------------------------------------------------------------|
G|-----------------------------------------------------------------|
D|-----------------------------------------------------------------|   X2
A|-------------------------------------------------3-3-3-3-3-3-3---|
E|-3-3-3-3-3-3-3---1-1-1-1-1-1-1-1---0-0-0-0-0-0-0-----------------|

             SOL
E poi ci sei tu
        FA   MIm
Che non bevi mai
   DO                 SOL
Ti chiedono com'è che fai?
          FA       MIm
O che cos'altro ti fai?

  DO              MIm              
E allora diciamocelo
                   RE    RE       MIm
Ci si droghi sol  -tan  -to co   -sì

            RE
Per farmi coraggio
Bevo bevo bevo
              RE
Per salir sul palco
Bevo bevo bevo

   DO      SI   MIm             RE 
e|----------------------------------------------|
B|----------------------------------------------|
G|-5-5-----4-4------------------7-7-------------|
D|-5-5-----4-4--2-2/------------7-7-------------|
A|-3-3-----2-2--2-2/------------5-5-------------|
E|--------------0-0-----------------------------|     
||  Quando mi diverto     -Bevo bevo bevo
||  Quando non mi diverto -Bevo bevo bevo
||  Perché il mio Paese   -Beve beve beve
||  Perché gli conviene   -Bere bere bere
||  E per festeggiare     -Bevo bevo bevo
||  Il Bianco Natale      -Bevo bevo bevo
||  Perché anche il prete -Beve beve beve       DO(ripetuto)
||  E per giunta in chiesa-Beve beve beveeeeeeeeeeeeee

RIFF X2

Articoli correlati

L'autore del post

Foto dell'autore
Alberto Moneti 31 anni; pianista dall'età di 8 anni, organista, percussionista, ha conseguito la licenza in teoria e solfeggio al Conservatorio Cherubini di Firenze. Webmaster, operatore di marketing online e SEO. Twitter @albertomoneti