A Me Me Piace O’Blues è la prima traccia del lato B di Nero A Metà (1980), uno degli album più celebri del musicista e cantautore napoletano, probabilmente quello che più di ogni altro ha contribuito a renderlo celebre in tutta Italia. E’ un brano che mescola le radici blues di Pino Daniele alla musica funk, seppur arricchita da sonorità anche elettroniche.
Lo stesso album è stato citato nella classifica speciale di Rolling Stone Italia dedicato ai migliori cd musicali italiani di musica contemporanea e piazzato al 17° posto.

Testo con accordi e tablatura per chitarra.

A Me Me Piace O Blues Accordi Tablatura Guitar Chords Tab Lyrics

[INTRO]
PARTE 1
                              LAm7     SOLm7
e|-------------------------------5---5-----3----|
b|----------------------3s5--3---8---8-----6----|
g|---2s3--2----2s3--2---2s4--2---6---6-----4----|
d|---2s3--2----2s3--2------------5---5-----3----|
a|-------------------------------7---7-----5----|
E|-------------------------------5---5-----3----|

PARTE 2
                               MI7  FA#7 SOLm7 LA7 SI7
e|-------------------------------0----2----3----5----7---|
b|----------------------3s5--3---3----5----6----8----10--|
g|---2s3--2----2s3--2---2s4--2---1----3----4----6----8---|
d|---2s3--2----2s3--2------------2----2----3----5----7---|
a|-------------------------------2----4----5----7----9---|
E|-------------------------------0----2----3----5----7---|

e|----7----------------|
b|----6----------------|
g|--------7---4--------|
d|---------------------|
a|---------------------|
E|---------------------|

[GLI ACCORDI DELLA STROFA VENGONO ESEGUITI IN QUESTO MODO:]

  SIm7     RE7         SOL     FA#7
|----2-|-----2-|-------3-|-------2----2----||
|----3-|-----1-|-------3-|-------2----2----||
|----2-|-----2-|-------4-|-------3----3----||
|------|-------|---------|-----------------|| ( x 2 )
|-2----|-4-5---|---------|-----------------||
|------|-------|--0--3---|---3-2-----------||

  SIm7     RE7       SOL7       Mi7
|----2--|------2-|---------3-|----0---0-|
|----3--|------1-|---------3-|----3---3-|
|----2--|------2-|---------4-|----1---1-|
|-------|----0---|-----------|----------|
|-2-----|--4-----|-----------|----------|
|-------|--------|--0---3----|--0-------|

  SOL7         FA#7
|-------3-|-------2----2----|
|-------3-|-------2----2----|
|-------4-|-------3----3----|
|---------|-----------------|
|---------|-----------------|
|--0-3----|---3-2-----------|

  SIm           RE7            SOL              FA#7
A me me piace o'blues e tutt'e juorne 'aggià cantà
   SIm          RE7              SOL           FA#7
pecchè so stato zitto e mò è o mumento e me sfuca
 SIm             RE7          SOL7      MI7 
  Sono volgare e so che nella vita suonerò
    SOL7           FA#7           SIm
pe' chi tene 'e compless e nun 'e vò

  SIm            RE7          SOL             FA#7
A me me piace o' zucchero che scenne 'int'o cafè
  SIm            RE7             SOL        FA#7
e cu' na' presa r'annice ma chi è meglio e' me
       SIm          RE7          SOL7          MI7        
Tengo 'a cazzimma e faccio tutto quello che mi va
    SOL7           FA#7         SIm
Pecchè so' blues e nun voglio cagnà

[INTRO: SOLO PARTE 2]

[RIT:]
RE7                SOL
Ma po' nce resta 'o mare
         FA#7          SIm7
e a pacienza e' suppurtà
RE7            FA#7
a' gente ca cammina
          FA#7        SIm7
miezo 'a via pe sbraità
RE7                 SOL
I vengo appriesso a te
            FA#7        SIm7
pecchè so nato 'cca
                      DO#9  DO9
sai che so niro,   ( niro )

ma nun te pozzo lassà

A me me piace chi da 'nfaccia
senza 'e se fermà
chi è tuosto e po s'arape
pecchè sape c'adda dà
alza 'o vraccio 'e cchiù
pe nun te fa 'mbruglià
e dalle 'nfaccia senza te ferma

A me me piace 'o blues
e tutt'e juorne aggià cantà
pecchè m'abbrucia 'o fronte
'e 'na manera aggià sfuca
tengo a cazzimma e faccio
tutto quello che mi va
pecchè so blues e nun voglio cagnà

[RIT:]
Ma po' nce resta 'o mare
e a pacienza e' suppurtà
a' gente ca cammina
miezo 'a via pe sbraità
I vengo appriesso a te
pecchè so nato 'cca
sai che so niro,   ( niro )
ma nun te pozzo lassà

Articoli correlati

L'autore del post

Foto dell'autore
Alberto Moneti 30 anni; pianista dall'età di 8 anni, organista, percussionista, ha conseguito la licenza in teoria e solfeggio al Conservatorio Cherubini di Firenze. Webmaster, operatore di marketing online e SEO. Twitter @albertomoneti