Agenzia Musicisti

Radiohead High And Dry Guitar Chords Tab Lyrics Accordi

INTRO

e|--4-4-4-4-4--2-2-2-2-2--4-4-4-4-4--0-0-0-0-0--0-0---------------
B|--0-0-0-0-0--0-0-0-0-0--0-0-0-0-0--0-0-0-0-0--0-0---------------
G|--6-6-6-6-6--4-4-4-4-4--6-6-6-6-6--2-2-2-2-2--1-1---------------
D|--6-6-6-6-6--4-4-4-4-4--6-6-6-6-6--2-2-2-2-2--2-2---------------
A|--0-0-0-0-0--0-0-0-0-0--0-0-0-0-0--0-0-0-0-0--2-2---------------
E|--x-x-x-x-x--x-x-x-x-x--x-x-x-x-x--x-x-x-x-x--0-0---------------  

F#m                           A                               E        E
two jumps in a week i bet you think that's pretty clever don't you boy.
F#m                        A                              E            E
flying on your motorcycle. watching all the ground beneath you drop.
      F#m                            A                        E        E
you'd kill yourself for recognition. kill yourself to never ever stop.
    F#m                          A                         E           E
you broke another mirror. you're turning into something you are not.  

              F#m   A                E          E
don't lead me high,    don't lead me dry,
              F#m   A                E          E
don't lead me high,    don't lead me dry.   

F#m     A       E       E         

F#m                       A                          E              E
drying up in conversation you will be the one who cannot talk.
F#m
all your insides fall to pieces.
A                                    E     E
you just sit there wishing you could still make love.  

F#m
they're the ones who'll hate you when you
A                             E   E
think you've got the world all sussed out.
F#m
they're the ones who'll spit at you.
A                        E        E
you will be the one screaming out.  

              F#m   A                E          E
don't lead me high,    don't lead me dry,
              F#m   A                E          E
don't lead me high,    don't lead me dry.   

F#m     A       E       E         

F#m     A       E       E         

         F#m
it's the best thing that you ever had.
A     E                        E
the best thing that you ever ever had.
         F#m
it's the best thing that you ever had.
A    E                           E
the best thing that you had has gone away.  

              F#m   A                E          E
don't lead me high,    don't lead me dry,
              F#m   A                E          E
don't lead me high,    don't lead me dry.
              F#m   A     E     E
don't lead me high,
              F#m   A                 E
don't lead me high,    don't leave me dry.   

Solo:   

e|--------------------------------------------------------------------------
B|--------------------------------------------------------------------------
G|10--10--9---10-10-9--10-10-10-9--10s12--10p9--10--10-9--10-9--7-----------
D|--------------------------------------------------------------------------
A|--------------------------------------------------------------------------
E|--------------------------------------------------------------------------

e---------------------------------------------------------------------------
B|--------------------------------------------------------------------------
G|-6---7-9--10--10--9--10-10-9--10-10-10-9--10s12---10p9--10--10-9--10-9--7-
D|--------------------------------------------------------------------------
A|--------------------------------------------------------------------------
E|--------------------------------------------------------------------------

Solo2:  

e|-0---0---0---0---0---0--0---0---0---0---0---0---0---0--0---0-------12-----
B|-0---0---0---0---0---0--0---0---0---0---0---0---0---0--0---0----------0---
G|14--14--13--14--13--11--9--13--14--14--14--14--13--11--9--11--11/13-----14
D|--------------------------------------------------------------------------
A|--------------------------------------------------------------------------
E|--------------------------------------------------------------------------  

e|-0-------0---0--0--0-0---0---0---0---0---0---0---0---0---0---0--0--0-----0
B|-0-------0---0--0--0---0-0---0---0---0---0---0---0---0---0---0--0--0-----0
G|11-h-13-11--11--9--9-----9--11--13--13--14--14--13--14--13--11--9--1--2--1
D|----------------------------------------------------------------------2--2
A|----------------------------------------------------------------------0--2
E|-------------------------------------------------------------------------0

Radiohead Guitar Chords Tabs Lyrics Accordi

Agenzia Musicisti

articoli correlati

l'autore del post

Foto dell'autore
Alberto Moneti 28 anni; musicista a tuttotondo, pianista dall'età di 8 anni, organista, percussionista, ha conseguito la licenza in teoria e solfeggio al Conservatorio Cherubini di Firenze. Webmaster, crea e gestisce siti personali e professionali.